Return to Guitar Page

Carlos Bonilla Chavez
Solo Tu

This is the first minute directly from
the Youtube video.This will give you a good
head start at mastering the piece.



    *                              
1--------5--7--8--8--8------------------7--8--7--5--------|
2------5-------------------6--------------9-----------5--5--|
3------5-------------------7--------------7-----------5--5--|
4----------------------0----------0--------------------------|
5---0------------------------0----------===--------0------|
6------------------------------------0----------------==----|


    **              Slide
1---------------------1---------------------------------===--1---|
2------------------1-----1===5--3--3-------------------0-------|
3---------------2--------2===5--4--4----------------1--------|
4---2--------2---------------------------------------0-----------|
5------3--0-------------------------------2---------------------|
6---------------------------------------------4--0---------------|


    Slide                        Repeat *                         Hrm Hrm
1-------------------------|---------|-----------5--10-------------
2---0---------------------|---------|--------6--------------------
3---1===4--2--2-------|---------|-----7--------10-------------
4---2===6--2--2--2----|---------|--0--------------------12----
5-------------------3--0--|---------|-------------------12--------
6-------------------------|---------|-----------------------------


   Hrm                Repeat **    Slide
1---12----10---8----8-----|----------|---------------|
2----------------------------|----------|---------------|
3---12----10---10---10----|----------|--------------|
4----------------------------|----------|---1===2----|
5---------0-----------------|----------|---2===3----|
6----------------------------|----------|---------------|


        Slide              Slide
1---3---5---3---5====7---7--------------7===10---10---8----8-----------|
2---3---3---3---3-------6------------------6------------------------------------|
3---4---4---4---4-------7------------------7-----10----------9----9-----------|
4-------------------------------------5------------9-----------10---10----------|
5--------------------------------5---------------------------------------10------|
6---3--------------------------------------------------------------------------8--|