Return to Spanish Folk Guitar
===================================
        Lagrima- Francisco Tarrega 1852-1909
===================================

                
                                        
E|--4-------5-------7------|--2----------------------|
B|------0-------0-------0--|------0-------0------0--|
G|--------------------------|----------2--------------|
D|--2-------4-------6-----|--1----------------------|
A|-------------------------|------------------2------|
E|-------------------------|-------------------------|


E|--4-------5-------7------|--2-----------------------|
B|------0-------0-------0--|------0-------0-------0--|
G|--------------------------|----------2---------------|
D|--2-------4-------6------|--1----------------------|
A|--------------------------|------------------2------|
E|--------------------------|-------------------------|
                         

e|--12------11------9------|--7-------------------5--|
B|----------------------7--|------9-------5---7------|
G|------9-------9----------|----------6--------------|
D|--11------9-------7------|--9----------------------|
A|-------------------------|-------------------------|
E|-------------------------|-------------------------|

 
E|--------------2----------|--0---------------------||
B|--9-------2-----------4--|------------------------||
G|------9---3-----------2--|--1---------------------||
D|--9----------------------|--2---------------------||
A|------------------2------|------------------------||
E|-------------------------|----------0-------------||
            
      
e|--3-s-8-p-7---0---2---3--|--0----------------------|
B|--0---------------4------|------1---0--------------|
G|------------------2------|------2---0---2---0---2--|
D|-------------------------|--------------4---2---4--|
A|------------------2------|-------------------------|
E|--0----------------------|--0----------------------|

   
          
E|-----12-------8----------|----------------------2--|
B|--0------------------10--|--7---------------0------|
G|--0----------------------|--8----------------------|
D|----------7--------------|------9-h-10--9----------|
A|------------------9------|-------------------------|
E|--0----------------------|--7----------------------|
                  

e|--3-------5-------7------|-10-p-8---7--------------|
B|------0-------0-------0--|-------------10---8---7--|
G|-------------------------|-------------------------|
D|--2-------4-------5------|-------------------------|
A|-------------------------|--0----------------------|
E|-------------------------|-------------------------|
  

E|--0-------2--------------|--0----------------------|
B|------0-------1---0------|-------------------------|
G|------0-------2-------2--|--0----------------------|
D|----------------------1--|--2----------------------|
A|----------0-------2------|-------------------------|
E|--3----------------------|----------0--------------|